当前位置:寻谱库>吉他谱>点歌吉他谱

点歌吉他谱

  • 歌手:谢霆锋
  • 词曲:
  • 记谱:未知
  • 人气:1812
  • 曲谱来源:转载
  • 曲谱格式:txt
  • 曲谱分类:吉他谱
  • 乐曲风格:未知
  • 发布日期:2020-06-08

-------------------------------------------------------------------------------
歌曲名:点歌 
歌手/乐队:谢霆锋
编配者(转载来源):网络
-------------------------------------------------------------------------------


Intro: C#m B A7 G#maj7 C#m B A7 G#7

C#m       B
过了午夜的城市裡
    A           G#
有些大楼依然灯火通明
C#m       B
打开车上的收音机
    A           G#
播著别人点的复杂心情
    A     B        A       G#
是否你也在收听 和我一样就一个人
    A      B     A       G#
没关係 这是DJ今晚要说的主题
       
C#m       B
拖了太久的我和你
    A           G#
到了最后还是各分东西
C#m       B          A           G#
没有一首歌说得清 一个可以让我懂的原因
    A     B        A      G#
也只好怪罪个性 再把问题丢给命运
    A     B        A    B
点几首流行的歌 解释流行的无情

        E          B
我点一首歌 别太悲伤的
        A             B
歌词裡头勾人眼泪的字眼别太多
        E          B
再点一首歌 别太快乐的
        A             G#
我还需要哽咽的歌声抚慰伤口
    C#m     A
代替你放开的手

Solo:

e|---5-7-5-~9-9-11-9-12-~15-15-13-~15-15-13-~15-13-12h13-12|
B|-~5-5---5--9-9----9--------------------------------------|

        E          B
我点一首歌 不要对唱的
        A             B
那些幸福对现在的我有一点过重
        E          B
最后一首歌 不要熟悉的
        A             G#
尤其是你偏爱的一些缠绵悱惻
    C#m     A
那些对我太刺耳

Ending:

e|-~4-5-7-4----------------~4-5-7-7~9-7-----------------4-4-4-2-------------4-4-5-2------4-4|
B|---------7-5-7-7~9-7p5h7--------------5-4--4-5-5~7-4--5-5-5-4-5-4-5-5~7-4-5-5-5-4-5--5-4-5|
G|------------------------------------------6-----------------------------------------6--5-6|
D|-----------------------------------------------------------------------------------6---6-6|
A|---------------------------------------------------------------------------------------6-4|
E|---------------------------------------------------------------------------------------4-4|

下一篇:有故事的人吉他谱
上一篇:借口吉他谱

关于《点歌吉他谱》的评价和回复

  • 请输入您对本版本《点歌吉他谱》的评价和回复


  • 回复列表

    没有本版本《点歌吉他谱》的评价和回复
  • 歌手[谢霆锋]简介

    谢霆锋

    谢霆锋(英文名:Nicholas Tse,1980年8月29日-),出生于香港、籍贯广东番禺,著名唱作男歌手及专业男演员,兼任企业老板身份。2003年创办Post Production Office公司,为中国最顶尖特效制作集团,后亦投资房地产,并涉足餐饮业、娱乐业等行业。儿时跟随家人移民加拿大温哥华。他从十四岁开始对音乐产生兴趣,十五岁到日本东京修读音乐。1996年谢霆锋出道,并以自身叛逆偶像姿态快速获得中港台年轻人的支持。他酷爱摇滚曲风,二十一岁获世界音乐奖,也是香港首位八十后金像影帝。